T-rev's Tab   Caedmon's   Featured   Other   Topics   Hints   Reviews   Links   Index

More songs by this artist


"Listen To The Rain" by Hughes and Wagner
From the "Downstream" compilation
Written by Jon Hughes and Tad Wagner   http://hughesandwagner.com
Copyright © 1998 Melancholy Dane Music (ASCAP)
Transcribed by T-rev http://www.t-rev.net

Capo 7.  (My solo standard-tuned interpretation, not exactly like the original.)

x32013  C
1x3011  F
3x003x  G
x32010  C
0x201x  C/E
x02010  Am7

INTRO/VERSE/SOLO:

-3|------1--------|------0-------3|------1--------|------0-------3|
-1|------1--------|--3---1-------1|------1--------|--3---1-------1|
--|----------0---0|--0------------|----------0---0|--0------------|
 -|----2---3---3--|----0-------2--|----2---3---3--|----0-------2--|
 -|3--------------|--------3------|3--------------|--------3------|
 -|--------1------|3--------------|--------1------|3--------------|

  |------1--------|------0--------|---------------|-------------(3)
  |------1--------|--3---1-------1|--0------------|--0---1------(1)
  |----------0---0|--0------------|------2---0---0|--0---0--------|
  |----2---3---3--|----0-------2--|----2-------0--|--3---2-----2--|
  |3--------------|--------3------|---------------|--------3------|
  |--------1------|3--------------|0-------1------|3--------------|

SOLO (capo 10 part, for a second guitar):

  |--0---0---0---0|--0---0---0---0|
  |0---0---0---0--|0---0---0---0--|
  |6---6---6---6--|6---6---6---6--|
  |7---7---0------|--------7---7--| x3
  |0--------------|7-------0------|
  |---------------|0--------------|

CHORUS/OUTRO:

  |---------------|--------------0|    |---------------|---------------|-----(3)
  |------1-------1|------1-------1|    |------1-------1|------1--------|-----(1)
  |----0-------0--|----0-------0--| x2 |----0-------0--|----0----------|-------|
  |----2-------0--|----0-------2--|    |----2-------0--|----2----------|-------|
  |---------------|--------0------|    |---------------|--------0------|2------(3)
  |0-------1------|3--------------|    |0-------1------|3--------------|-------|

Transcribed 5/11/2000 by T-rev
More tab available at http://www.t-rev.net

T-rev's Tab   Caedmon's   Featured   Other   Topics   Hints   Reviews   Links   Index

Please email comments to Email T-rev.