T-rev's Tab   Caedmon's   Featured   Other   Topics   Hints   Reviews   Links   Index

More songs by this artist


"I Will Be Here" by Steven Curtis Chapman
From "More To This Life"
Words and music by Steven Curtis Chapman
Copyright © 1989 Sparrow Song/New Wings Music/Greg Nelson Music (BMI)
scchapman.com
Transcribed by T-rev http://www.t-rev.net


Capo 1

xx0230  Dadd9       2x0230  Dadd9/F#
3x0230  Gsus6add9
x0202x  A7          x0203x  A7sus4
x4023x  Dmaj7/C#
x2423x  Bm7
x0422x  Asus6
0x0030  Em7
0x0100  E7          0x0200  E7sus4
2x232x  F#7
x12020  A#o7


 1   .   .   .   2   .   .   .   3   .   .   .   4   .   .   .
|------0--------|----0----------|------0--------|----0----------|
|----3-----3----|--3---3--------|----3-----3----|--3---3--------|
|--2---------2--|2---2-----2----|--2---------2--|2---2-----2----|
|0-------0-----0|--0---0--------|0-------0-----0|--0---0--------|
|---------------|---------------|---------------|---------------|
|---------------|3-------3------|---------------|3-------3------|

 5   .   .   .   6   .   .   .   7   .   .   .   8   .   .   .
|------0--------|---------------|---------------|---------------|
|----3-----3----|3---2h3--------|------3-------2|------3-------3|
|--2---------2--|0---------2----|----2-------2--|----2----------|
|0-------0-----0|-(2)----0-----0|--4-------4----|--0-----0---0--|
|---------------|0-----------4--|2-------0------|---------------|
|---------------|---------------|---------------|3---------2----|
Tomorrow morning if you wake up and the sun does not appear

 9   .   .   .  10   .   .   .  11   .   .   .  12   .   .   .
|----------0----|---------------|------0--------|----0----------|
|----3----------|------3-2-----2|----3-----3----|--3---3--------|
|------0-----0--|----0-------0--|--2---------2--|2---2-----2----|
|--0-----0-----0|--2-------2----|0-------0-----0|--0---0--------|
|---------------|0-------0------|---------------|---------------|
|0--------------|---------------|---------------|3-------3------|
 I...                    I will be here

13   .   .   .  14   .   .   .  15   .   .   .  16   .   .   .
|------0--------|---------------|---------------|---------------|
|----3-----3----|3---2h3--------|------3-------2|------3-------3|
|--2---------2--|0---------2----|----2-------2--|----2----------|
|0-------0-----0|-(2)----0-----0|--4-------4----|--0-----0---0--|
|---------------|0-----------4--|2-------0------|---------------|
|---------------|---------------|---------------|3---------2----|
If in the dark we lose sight of love hold my hand and have no fear

17   .   .   .  18   .   .   .  19   .   .   .  20   .   .   .
|----------0----|---------------|------0--------h2-----0--------|
|----3----------|------3-2-----2|----3---------3|----3---------3|
|------0-----0--|----0-------0--|--2-----2---2--|--2---------2--|
|--0-----0-----0|--2-------2----|0---------0----|0---------0----|
|---------------|0-------0------|---------------|--------4------|
|0--------------|---------------|---------------|---------------|
'cause I...              I will be here                  I will be

21   .   .   .  22   .   .   .  23   .   .   .  24   .   .   .
|---------------|---------------|---------------|------0--------|
|------3-------2|------0-----0--|------3-------3|----------3----|
|----2-------2--|----2-----1----|----0-------2--|----2-------2--|
|--4-------4----|--0-----0-----0|--2-------0----|--0-----0-----0|
|2-------0------|---------------|0--------------|---------------|
|---------------|0--------------|--------3------|2--------------|
here when you feel like being quiet when you need to speak your

25   .   .   .  26   .   .   .  27   .   .   .  28   .   .   .
|---------------|---------------|---------------|---------------|
|------3-------3|------3-------2|------3-------2|------0-----0--|
|----0-------2--|----0-------3--|----2-------2--|----2-----1----|
|--0-------0----|--0-------2----|--4-------4----|--0-----0-----0|
|---------------|---------------|2-------0------|---------------|
|3-------2------|0-------2------|---------------|0--------------|
mind I will listen and I will be here when the laughter turns to

29   .   .   .  30   .   .   .  31   .   .   .  32   .   .   .  33   .   .   .
|---------------|------0--------|---------------|------0--------|0--------------|
|------3-------3|----------3----|------3-------3|----------3----|3--------------|
|----0-------2--|----2-------2--|----0-------2--|----0-------0--|0--------------|
|--2-------0----|--0-----0-----0|--0-------0----|--0-----0-----0|---------------|
|0--------------|---------------|---------------|---------------|0--------------|
|--------3------|2--------------|3-------2------|0--------------|---------------|
crying through the winning losing and trying we'll be together 'cause I will be here

34   .   .   .  35   .   .   .  36   .   .   .  37   .   .   .
|------0--------|----0----------|------0--------|----0----------|
|----3-----3----|--3---3--------|----3-----3----|--3---3--------|
|--2---------2--|2---2-----2----|--2---------2--|2---2-----2----|
|0-------0-----0|--0---0--------|0-------0-----0|--0---0--------|
|---------------|---------------|---------------|---------------|
|---------------|3-------3------|---------------|3-------3------|

38   .   .   .  39   .   .   .  40   .   .   .  41   .   .   .
|------0--------|---------------|---------------|---------------|
|----3-----3----|3---2h3--------|------3-------2|------3-------3|
|--2---------2--|0---------2----|----2-------2--|----2----------|
|0-------0-----0|-(2)----0-----0|--4-------4----|--0-----0---0--|
|---------------|0-----------4--|2-------0------|---------------|
|---------------|---------------|---------------|3---------2----|
Tommorow morning if you wake up and the future is unclear

42   .   .   .  43   .   .   .  44   .   .   .  45   .   .   .
|----------0----|---------------|------0--------|----0----------|
|----3----------|------3-2-----2|----3-----3----|--3---3--------|
|------0-----0--|----0-------0--|--2---------2--|2---2-----2----|
|--0-----0-----0|--2-------2----|0-------0-----0|--0---0--------|
|---------------|0-------0------|---------------|---------------|
|0--------------|---------------|---------------|3-------3------|
 I...                    I will be here

46   .   .   .  47   .   .   .  48   .   .   .  49   .   .   .
|------0--------|---------------|---------------|---------------|
|----3-----3----|3---2h3--------|------3-------2|------3-------3|
|--2---------2--|0---------2----|----2-------2--|----2----------|
|0-------0-----0|-(2)----0-----0|--4-------4----|--0-----0---0--|
|---------------|0-----------4--|2-------0------|---------------|
|---------------|---------------|---------------|3---------2----|
As sure as seasons are made for change our lifetimes are made for years

50   .   .   .  51   .   .   .  52   .   .   .  53   .   .   .
|----------0----|---------------|------0--------h2-----0--------|
|----3----------|------3-2-----2|----3---------3|----3---------3|
|------0-----0--|----0-------0--|--2-----2---2--|--2---------2--|
|--0-----0-----0|--2-------2----|0---------0----|0---------0----|
|---------------|0-------0------|---------------|--------4------|
|0--------------|---------------|---------------|---------------|
so I...                  I will be here                  I will be

54   .   .   .  55   .   .   .  56   .   .   .  57   .   .   .
|---------------|---------------|---------------|------0--------|
|------3-------2|------0-----0--|------3-------3|----------3----|
|----2-------2--|----2-----1----|----0-------2--|----2-------2--|
|--4-------4----|--0-----0-----0|--2-------0----|--0-----0-----0|
|2-------0------|---------------|0--------------|---------------|
|---------------|0--------------|--------3------|2--------------|
here and you can cry on my shoulder when the mirror tells us we're

58   .   .   .  59   .   .   .  60   .   .   .  61   .   .   .
|---------------|---------------|---------------|---------------|
|------3-------3|------3-------2|------3-------2|------0-----0--|
|----0-------2--|----0-------3--|----2-------2--|----2-----1----|
|--0-------0----|--0-------2----|--4-------4----|--0-----0-----0|
|---------------|---------------|2-------0------|---------------|
|3-------2------|0-------2------|---------------|0--------------|
older I will hold you and I will be here to watch you grow in

62   .   .   .  63   .   .   .  64   .   .   .  65   .   .   .  66   .   .   .
|---------------|------0--------|---------------|---------------|---------------|
|------3-------3|----------3----|------3-------3|------3-------3|------3-------2|
|----0-------2--|----2-------2--|----0-------2--|----0-----0----|----0-------0--|
|--2-------0----|--0-----0-----0|--0-------0----|--0---------0--|--2-------2----|
|0--------------|---------------|---------------|---------------|0-------1------|
|--------3------|2--------------|3-------2------|0-------0------|---------------|
beauty and tell you all the things you are to me I will be here

67   .   .   .  68   .   .   .  69   .   .   .  70   .   .   .
|---------------|---------------|---------------|------0--------|
|------3-------3|------0-----0--|------3-------3|----------3----|
|----2-----2----|----2-----1----|----0-------2--|----2-------2--|
|--4---------4--|--0-----0-----0|--2-------0----|--0-----0-----0|
|2-------2------|---------------|0--------------|---------------|
|---------------|0--------------|--------3------|2--------------|
 I    will be true      to the promise I have made            to

71   .   .   .  72   .   .   .  73   .   .   .  74   .   .   .  75   .   .   .
|---------------|----------0----|----------0----|------0--------|------0--------|
|------3-------3|----3----------|------3-----3--|2---------2----|----3---2-----2|
|----0-------2--|------0-----0--|----0---------0|----0-------0--|--------0---0--|
|--0-------0----|--0-----0-----0|--2------------|--2------------|--0-------2----|
|---------------|---------------|0-------0------|0-------0------|--------0------|
|3-------2------|0--------------|---------------|---------------|0--------------|
you and to the one      who gave you to          me.

76   .   .   .  77   .   .   .  78   .   .   .  79   .   .   .
|------0--------|---------------|---------------|---------------|
|----3-----3----|3---2h3--------|------3-------2|------3-------3|
|--2---------2--|0---------2----|----2-------2--|----2----------|
|0-------0-----0|-(2)----0-----0|--4-------4----|--0-----0---0--|
|---------------|0-----------4--|2-------0------|---------------|
|---------------|---------------|---------------|3---------2----|

80   .   .   .  81   .   .   .  82   .   .   .  83   .   .   .
|----------0----|---------------|------0--------|----0----------|
|----3----------|------3-2-----2|----3-----3----|--3---3--------|
|------0-----0--|----0-------0--|--2---------2--|2---2-----2----|
|--0-----0-----0|--2-------2----|0-------0-----0|--0---0--------|
|---------------|0-------0------|---------------|---------------|
|0--------------|---------------|---------------|3-------3------|
 I...                    I will be here              And just as

84   .   .   .  85   .   .   .  86   .   .   .  87   .   .   .
|------0--------|---------------|---------------|---------------|
|----3-----3----|3---2h3--------|------3-------2|------3-------3|
|--2---------2--|0---------2----|----2-------2--|----2----------|
|0-------0-----0|-(2)----0-----0|--4-------4----|--0-----0---0--|
|---------------|0-----------4--|2-------0------|---------------|
|---------------|---------------|---------------|3---------2----|
sure as seasons are made for change our lifetimes are made for years

88   .   .   .  89   .   .   .  90   .   .   .  91   .   .   .
|----------0----|---------------|---------------|---------------|
|----3----------|------3---0----|------2--------|------3-------2|
|------0-----0--|----0---------0|----0-----0----|----2-------2--|
|--0-----0-----0|--2---------2--|--2---------2--|--4-------4----|
|---------------|0-------0------|1-------1------|2-------0------|
|0--------------|---------------|---------------|---------------|
so I...                           I will         be here we'll be

92   .   .   .  93   .   .   .  94   .   .   .  95   .   .   .
|----------0----|0--------------|------0--------|----0----------|
|----3----------|3--------------|----3-----3----|--3---3--------|
|------0-----0--|0--------------|--2---------2--|2---2-----2----|
|--0-----0-----0|---------------|0-------0-----0|--0---0--------|
|---------------|0--------------|---------------|---------------|
|0--------------|---------------|---------------|3-------3------|
 together             I will be here

96   .   .   .  97   .   .   .  98   .   .   .
|------0--------|------0--------|2--------------|
|----3-----3----|----3---2------|3--------------|
|--2---------2--|--------0------|2--------------|
|--------0-----0|--0------------|0--------------|
|---------------|--------0------|---------------|
|2--------------|0--------------|---------------|


Transcribed 6/20/1999 by T-rev for BJ and Amber
With corrections by Phillip Aramburu <preacher2k@hotmail.com>
More tab available at http://www.t-rev.net

T-rev's Tab   Caedmon's   Featured   Other   Topics   Hints   Reviews   Links   Index

Please email comments to Email T-rev.