T-rev's Tab   Caedmon's   Featured   Other   Topics   Hints   Reviews   Links   Index

More songs by Caedmon's Call


"Faith My Eyes" by Caedmon's Call
From "40 Acres"
Words and music by Derek Webb
Copyright © 1999 New Spring Publishing / Niphon Music (ASCAP)
http://caedmons-call.com   http://awakeningrecords.com
Transcribed by T-rev http://www.t-rev.net

Capo 1

INTRO/BRIDGE:
   1 . . . 2 . . . 3 . . . 4 . . . 1 . . . 2 . . . 3 . . . 4 . . .
--|------3-------2----------------|-------------------------------|
--|----------0-----------0-------1|----------1-----------1-------0|
--|--------------------------0----|--------------0-----------0----|
-0|----------------------------0--|------0h2---2-----0---------0--|
-0|-------------------------------|3---3-----------3---3---3------|
--|3-------------------3----------|-------------------------------|

   1 . . . 2 . . . 3 . . . 4 . . . 1 . . . 2 . . . 3 . . . 4 . . .
  |------3-------2----------------|----------------------3--------|
  |----------0-----------0-------0|-h1---1-------1-----------1----|
  |--------------------------0----|----0-------0-------0---------0|
  |----0-------0-------0-------0--|------------0-------0-------0--|
  |-------------------------------|0-------2-------3--------------|
  |0---------------0--------------|-------------------------------|


VERSE:
   1 . . . 2 . . . 3 . . . 4 . . . 1 . . . 2 . . . 3 . . . 4 . . .(1 .)
  |-------------------------------|------0------------------------|
  |--1-------1-------1-------1----|----------3---------3-----3---0|(h1)
  |------0-------0-------0-------0|--------------2-----2----------|
  |----0-------0-------0-------0--|----0--(0)-(0)--0---0---0---0--|
  |3-------2-------0--------------|-------------------------------|
  |^-----^-----^-^-------^-3-----^|0h2----------------------------|

   1 . . . 2 . . . 3 . . . 4 . . . 1 . . . 2 . . . 3 . . . 4 . . .
  |------3---------------3--------|------3------------------------|
(0)-h1-------1---------------1----|----------1--------------------|
  |-------------------------------|-------------------------------|
  |-------------------------------|-------------------------------|
  |3---------------0h2------------|0------------------------------|
  |-------------------------------|-------------------------------|

VERSE 1

VERSE 2

VERSE 3

BRIDGE 1

CHORUS:
G      C      D7     G
G      C      D7     Em
G      C      D7     G
G      C      D7     G

VERSE 4

VERSE 5

BRIDGE 2

REPEAT CHORUS

SOLO: Fmaj9, C, G, G, Fmaj9, C, G, D, Dhi

VERSE 6

REPEAT CHORUS

OUTRO

 320003   G
 X30013   C
 022003   Em
 X02210   Am
 200230   D/F#
 XX0213   D7
 133010   Fmaj9
 X00232   D
 XX0ETT   Dhi (slide to this from D - E=11 T=10)


Transcribed 11/1/1997 by T-rev, improved 7/14/2000
More tab available at http://www.t-rev.net

T-rev's Tab   Caedmon's   Featured   Other   Topics   Hints   Reviews   Links   Index

Please email comments to Email T-rev.