T-rev's Tab   Caedmon's   Featured   Other   Topics   Hints   Reviews   Links   Index

More songs by Bebo Norman


"A Page Is Turned" by Bebo Norman
From the album "The Fabric Of Verse"
Words and music by Bebo Norman
Copyright © 1996 Bebo Norman
bebonorman.com   awakeningrecords.com
Transcribed by T-rev http://www.t-rev.net


Tune DADGAD (such that 200022 sounds like standard tuning), capo 2.
(Optionally, play standard-tuned with no capo.)  Fingerpick with the
occasional drawn-out (arpeggiated) strum on beat 2, for example, the
F#m in the intro tab, designated by an asterisk (*).

DADGAD+2      Standard
5X0000    A    X02200
4X0000    /G#  4X2200
2X2000    F#m  2X4200
000000    E    022200
X32030    D    XX0230
004000    E¤   0X6200

INTRO:  |A   .  |/G# .  |F#m .  |E   .  |

VERSE:  |A   .  |F#m .  |D   .  |E¤  .  | (x2)

CHORUS: |D   .  |E   .  |A  /G# |F#m .  | (x2)
        |D   .  |E   .  |

BRIDGE: |F#m .  |E   .  |F#m .  |E   .  |
        |F#m .  |E   .  |D   .  |E   .  |

INTRO:
    1 . 2 . 3 . 4 . 5 . 6 . 7 . 8 . 1 . 2 . 3 . 4 . 5 . 6 . 7 . 8 .
 D-|0------------------------------|0-------------0----------------|
 A-|------0h2-----2h3-----2---0---0|------0h2-------------2---0----|
 G-|-------------------------------|----------0-----------------0--|
 D-|----0-----0-------0------------|----0-------------------------0|
 A-|-------------------------------|-------------------------------|
 D-|5-----------5-------5---5------|4-----------4-------4---4------|
    1 . 2 . 3 . 4 . 5 . 6 . 7 . 8 . 1 . 2 . 3 . 4 . 5 . 6 . 7 . 8 .
 D-|----0-----------------0--------|-------------------------------|
 A-|----0--------------------------|------0h2-----2/3----/5---3----|
 G-|----0---------0-----------0----|---------------------/4---2---0|
 D-|---*2-------------2-----------0|----0-----0-------0------------|
 A-|-------------------------------|------------0-------0---0---0--|
 D-|2-----------2---2---2---2---2--|0------------------------------|


Transcribed 3/19/1998 by T-rev
More tab available at http://www.t-rev.net

~~~~~~~~~~~~~~~~~~~~~~~~~~~~~~~~~~~~~~~~~~~~~~~~~~~~~~~~~~

INTRO

VERSE 1:
A page is turned by the wind
To a boy in curly grin
With a world to conquer
At the age of ten
But as history unfolds
And the story book is told
He finds salvation
But not at the hands of man and

CHORUS 1:
The God of second chance
He picked him up and He let him dance
Through a world that is not kind
And all this time preparing him the one
To hold him up when he comes undone
Beneath the storm, beneath the sun
And now a man, here you stand
Your day has come

REPEAT INTRO

VERSE 2:
A page is turned in this world
To reveal a little girl
With a heart that's bigger
As it is unfurled
By the language in her soul
That's teaching her to grow
With a careful cover
Of Love that will not fail

CHORUS 2:
The God of second chance
He picked her up and He let her dance
Through a world that is not kind
And all this time preparing her the one
To hold her up when she comes undone
Beneath the storm, beneath the sun
And grown up tall, here you are
Your day has come

BRIDGE:
Beneath the air of Autumn
She took him by his hand
And warm within the ardor
She took his heart instead
And high upon the mountain
He asked her for her hand
Just for her hand

VERSE 3:
A page is turned in this life
He's making her his wife
And there is no secret
To the Source of this much life
When the Grace that falls like rain
Is washing them again
Just a chance to somehow
Rise above this land

CHORUS 3:
Where the God of second chance
Will pick them up and He'll let them dance
Through a world that is not kind.
And all this time they're sharing with the One
Who holds them up when they come undone
Beneath the storm, beneath the sun
And once again, here you stand
Your day has come

REPEAT INTRO

T-rev's Tab   Caedmon's   Featured   Other   Topics   Hints   Reviews   Links   Index

Please email comments to Email T-rev.