T-rev's Tab   Caedmon's   Featured   Other   Topics   Hints   Reviews   Links   Index

More songs by Bebo Norman


"Mary's Prayer" by Bebo Norman
From Ed Cash, Allen Levi and Bebo Norman "Joy"
Words and music by Bebo Norman
Copyright © 1997 Bebo Norman
http://bebonorman.com   http://awakeningrecords.com
Transcribed by T-rev http://www.t-rev.net


Capo 1.  Bebo plays fingerstyle with acrylic nails.  The intro is
the first 8 bars of the verse and is repeated after each chorus.


VERSE:

9/41/73         10              11              12
|------0--------|------0--------|0---------0----|---------------|
|----3-----3----|----3-----3----|------3-----3--|--------3------|
|--2-----------2|--2-----------2|----2---2-----0|----0h2---2---0|
|0--------------|---------------|--0------------|--0---------0--|
|------------0--|4-----------4--|3--------------|2--------------|
|---------------|---------------|---------------|---------------|
1 Sleep baby Jesus                close your weary eyes
2 Sleep baby Jesus                for now your time has come
3 Sleep baby Jesus                my Father and my child

13/45/77        14              15              16
|---------------|---------------|---------------|---------------|
|------3--------|------3--------|------3--------|------3--------|
|----0---------0|----2---------0|----0---0-----0|----2---2-----0|
|--0-------0----|--0-------0----|--2-------2----|--2-------2----|
|1-----------1--|0-----------0--|------------2--|0-----------0--|
|---------------|---------------|0--------------|---------------|
 Hide yourself in faithful dreams  before you live your life
 To heal the wounded leper         to calm the raging storm
 Beneath this broken cross of sin  stained with men's denial

17/49/81        18              19              20
|------0--------|------0--------|0---------0----|---------------|
|----3-----3----|----3-----3----|------3-----3--|--------3------|
|--2-----------2|--2-----------2|----2---2-----0|----0h2---2---0|
|0--------------|---------------|--0------------|--0---------0--|
|------------0--|4-----------4--|3--------------|2--------------|
|---------------|---------------|---------------|---------------|
 Slip away to heaven                  and rest in gentle peace
 With perfect steps of perfect grace  you leave behind your fear
 And though you now are breathless    with thorns upon your head

21/53/85        22              23              24
|---------------|---------------|---------------|---------------|
|------3--------|------3--------|------3--------|------3--------|
|----0---------0|----2---------0|----0---0-----0|----2---2-----0|
|--0-------0----|--0-------0----|--2-------2----|--2-------2----|
|1-----------1--|0-----------0--|------------2--|0--------------|
|---------------|---------------|0--------------|------------0--|
 Never to awaken                   the Lord your soul to keep
 And walk along these dusty roads  though your fate is clear
 Your body has been broken         so your children can be fed


CHORUS:

25/58/89        26              27              28
|---------------|------0--------|---------------|------0--------|
|------3--------|----3---3------|------3--------|----3---3------|
|----0---0-----0|--2-------0---0|----0---------0|--2-------0---0|
|--0-------0----|0--------------|--0-------0----|0--------------|
|---------------|---------------|---------------|---------------|
|3-----------3--|------------2--|3-----------3--|------------2--|
1 'Cause your feet will walk on water    your eyes will pierce the dark
2 'Cause your feet walk on water         your eyes pierce the dark
3 'Cause your feet have walked on water  your eyes have pierced the dark

29/62/93        30              31(2/4) 32
|---------------|------------3--|-------|---------------|
|------3--------|----3-------3--|-------|------3--------|
|----0---0-----0|--2---0---0-0--|-------|----2---------2|
|--0-------0----|0---------0-0--|-------|--2-------2----|
|---------------|---------------|-------|0-----------0--|
|3-----------3--|--------3------|-------|---------------|
 Your heart will save the souls of men  your hands will bear the scars
 Your heart will save the souls of men  your hands will bear the scars
 Your heart has saved the souls of men  your hands now bear the scars


Transcribed 11/9/2000 by T-rev
More tab available at http://www.t-rev.net

T-rev's Tab   Caedmon's   Featured   Other   Topics   Hints   Reviews   Links   Index

Please email comments to Email T-rev.