T-rev's Tab     Caedmon's  ~  Featured  ~  Other  ~  Topics  ~  Hints  ~  Reviews  ~  Links  ~  Index

More songs by this artist


"The End" by Hughes and Wagner
From "Lady of Cicero"
Written by Jon Hughes and Tad Wagner   http://hughesandwagner.com
Copyright  1997 Melancholy Dane Music (ASCAP)
Transcribed by T-rev http://www.t-rev.net

DADGAD capo 4 (or standard-tuned capo 2nd plus 345-capo 4th)

DADGAD          Partial-capo
000200   D      000200
400200   /F#    200200
5x0000   G      3x0000
x24000   Bm     x24000
4x4000   F#m    2x4000
x02220   A      x02220
x30000   C      x30000
x20000   /B     x20000
x10010   Gm     x10010
200000   /E     C00000 (C = partial capo fret)
x00000   /A     x00000
x40000   /C#    x40000

INTRO for partial capo.  The only difference for DADGAD is on the
sixth string: 2=4 (/F#) and 3=5 (G); and on the first string the
final lick is {/4\2p0}:
 -0|--------------0|---------------|--------------0|---------------|
 -0|----------0----|------0--------|------0--------|---------------|
 --|------2--------|--------0-----0|----0-------0--|------0--------|
 --|----0-------0--|----0-----2/4--|--4-------4----|--2-0---0------|
 --|---------------|--5------------|2--------------|----------4-2-0|
 --|0-------2------|3--------------|--------2------|3--------------|

   |--------------0|---------------|--------------0|--0---0--/2\Cp0| (C =
   |----------0----|------0--------|------0-------0|--0---0---0----| partial
   |------2--------|--------0-----0|----0-------0-0|--0---0--------| capo
   |----0-------0--|----0-----2/4--|--4-------4---0|------*--------| fret)
   |---------------|--5------------|2--------------|---staccato----|
   |0-------2------|3--------------|--------2-----3|---------------|

VERSE
|D    .   |D    .   |A    .   |A    .   |
|C    .   |C    .   |/B   .   |/B   .   |
|Gm   .   |/F#  .   |Gm   .   |D    .   |
|A    .   |A    .   |

CHORUS
|D    .   |D    .   |A    .   |A    .   |
|G    .   |G    .   |/F#  .   |/F#  /E  |
|D    .   |D    .   |A    .   |A    .   |
|G    /A  |/B   /C# |

Transcribed 12/22/1999 by T-rev
More tab available at http://www.t-rev.net

~~~~~~~~~~~~~~~~~~~~~~~~~~~~~~~~~~~~~~~~~~~~~~~~~~~~~~~~~~

INTRO

VERSE 1
It could have been the wind
I believe it was your spirit
Rushing away
From the mess we made
We made

REPEAT INTRO

VERSE 2
It would have been so fine
On our way to see the sunrise
But such are the plans
Of mice and men
And men

REPEAT INTRO

CHORUS
Should have been home by now
Should never have gone
Turning the wheel
Turning up-side-down
You should be free by now
It should have been me...

REPEAT INTRO

VERSE 3
I am bruised and torn
But you escaped the danger
Brokenness can mend
If this is not the end
The end

REPEAT INTRO

T-rev's Tab     Caedmon's  ~  Featured  ~  Other  ~  Topics  ~  Hints  ~  Reviews  ~  Links  ~  Index

Please email comments or contributions to Email T-rev.