T-rev's Tab     Caedmon's  ~  Featured  ~  Other  ~  Topics  ~  Hints  ~  Reviews  ~  Links  ~  Index

More songs by this artist


"Mother Nature's Son" by The Beatles
From "The Beatles" (a.k.a. the "White Album")
Lennon/McCARTNEY
Copyright  1968 Northern Songs Ltd.
Transcribed by T-rev http://www.t-rev.net


Finger-pick and strum.

xxx432  Bm        xx0235  Dno3      x02225  A         xx0775  D
xxx232  D/A       xx0233  Dsus4     x02235  Asus4     xx0675  Dmaj7
xxx132  E9/G#     xx0230  Dadd9     xx0231  Dm        xx0575  D7
0xxx32  E9        xx0232  D         xx0333  Gm/D      xx0433  G/D
                  xx0212  D7

INTRO:
|----2-------2--|----2----------|
|----3-------3--|----3----------|
|4-------2------|1--------------|
|---------------|---------------|
|---------------|---------------|
|------------------------0------|

|5-------3------|0----23-32-----|02------23----2|02-----002-----|
|--3-333---3-333|--3-333---3-333|--3-333---3-333|--3-333---3-333|
|--2-222---2-222|--2-222---2-222|--2-222---2-222|--2-222---2-222|
|0-------0------|0-------0------|0-------0------|0-------0------|
|---------------|---------------|---------------|---------------|
|---------------|---------------|---------------|---------------|


VERSE:
|2-------23-----|3-------2------|--2-222---2-222|--2-222--(2-222) <- VERSE 1
|--3-333---3-333|--3-333---3-333|--3-333---3-333|--3-333--(3-333)
|--2-222---2-222|--2-222---2-222|4-------2------|1--------------|
|0-------0------|0-------0------|---------------|---------(----2)    VERSES
|---------------|---------------|---------------|---------(--2--) <- 2 and 3
|---------------|---------------|---------------|--------0(4----)    and SOLO
"Born a poor young country boy   Mother Nature's Son
"Sit beside  a  mountain stream  see her waters rise
"Find me in  my field of grass   Mother Nature's Son

|--5---5---5---5|--5---5---5---5| [2-22232-1-11135|3-33353-2------] [This part
|2-2-3-3-2-2-3-3|2-2-3-3-2-2-3-3| [--33333---33333|--33333---3-3-3] twice after
|---------------|---------------| [--22222---22222|--33333---2-2-2] VERSE 1,
|---------------|---------------| [0-------0------|0-------0------] once after
|0---0---0---0--|0---0---0---0--| [---------------|---------------] VERSES 2 &
|---------------|---------------| [---------------|---------------] 3 and SOLO]
All day long I'm sitting singing songs for everyone. (First time to VERSE 2)
Listen to the pretty sound of music as she flies. (To CHORUS) "Dodo
Swaying daisies sing a lazy song beneath the sun. (To CHORUS) "Dodo



CHORUS ("Doo, doo, doo, doo..."):
|5---2---3---5--|7---3---5------|5---2---3---5--|7---3--|
|--3---3---3---3|------3---3-3-3|--3---3---3---3|------3|
|--2---2---2---2|--4---2---2-2-2|--2---2---2---2|--4---2|
|0---0---0---0--|0---0---0------|0---0---0---0--|0---0--|
|---------------|---------------|---------------|-------|
|---------------|---------------|---------------|-------|
 doo doo doo doo dododododoo...  do, do, do, do, dodododo

|5-55575-5-55575|5-55575-7-7-5-5|3-33353-3-33353|2-2-222-2-2-222|
|7-77777-7-77777|7-77777---7---7|3-33333-3-33333|3-3-333-3-3-333|
|7-77777-6-66666|5-55555---5---5|4-44444-3-33333|2-2-222-2-2-222|
|0-------0------|0-------0---0--|0-------0------|0-------0------|
|---------------|---------------|---------------|---------------|
|---------------|---------------|---------------|---------------|
 doo...                doodoodododoo...  (First time to VERSE 3)


SOLO (over VERSE rhythm guitar, "Mmm..." hummed to VERSE melody):
|---------------|---------------|10--10--9--1097|7--------------|
|---------------|---------------|---------------|---------------|
|--2---2---2---2|--2---2---2/7--|---------------|---------------|
|4---4---5---5--|5---5---4------|---------------|--------------2|
|---------------|---------------|---------------|------------2--|
|---------------|---------------|---------------|--------0-4----|

|0--------------|---------------|--------5--\1--/7--\3--/10~----|
|----3---2---0--|---------------|---------------|---------------|
|---------------|2---0----------|------2-5--\2--/7--\4--/11~----|
|---------------|--------4---2--|0--/4----------|---------------|
|---------------|---------------|---------------|---------------|
|---------------|---------------|---------------|---------------|

|2-22232-1-11135|3-33353-2------|2--------------|
|--33333---33333|--33333---3-3-3|1--------------|
|--22222---22222|--33333---2-2-2|2--------------|
|0-------0------|0-------0------|0--------------|
|---------------|---------------|---------------|
|---------------|---------------|---------------|
 Ooo...          Mother Nature's Son.


Transcribed 1/15/2000 by T-rev
More tab available at http://www.t-rev.net

T-rev's Tab     Caedmon's  ~  Featured  ~  Other  ~  Topics  ~  Hints  ~  Reviews  ~  Links  ~  Index

Please email comments or contributions to Email T-rev.