T-rev's Tab     Caedmon's  ~  Featured  ~  Other  ~  Topics  ~  Hints  ~  Reviews  ~  Links  ~  Index

More songs by this artist


"All Fall Down (live)" expanded tab
By Harrod & Funck
From the 1998 album "Harrod & Funck Live"
(Studio version on 1997 self-titled album)
Words and music by Harrod & Funck  1998 Flannel Circus Music (ASCAP)
www.jasonharrod.com
Transcribed by T-rev www.t-rev.net

In D major, straight 4/4 time.  Guitar tuned to double drop-D, i.e. DADGBd (from
standard tuning, tune the biggest and smallest strings down the equivalent of two
frets).  I think this tab is fairly representavive of the rhythm part (played by
Funck).  Harrod's harmonica in the outro is a D major diatonic.


INTRO:

e|---------------|---------------|---------------|---------------|
B|--3-----3------|--3-----3------|--3-----3------|--3-----3------|
G|.-0-----0------|--0-----0------|--0-----0------|--0-----0------|
D|.---4-----4---4|----4-----4---4|----4-----4---4|----4-----4---4|
A|---------------|---------------|---------------|---------------|
D|0-----0-----0--|0-----0-----0--|2-----2-----2--|2-----2-----0--|

e|---------------|---------------|---------------|---------------|
B|--3-----3------|--3-----3------|--3-----3------|--3-----3------|
G|--0-----0------|--0-----0------|--0-----0------|--0-----0-----:|
D|----4-----4---4|----4-----4---4|----4-----4---4|----4-----4---4|
A|---------------|---------------|---------------|---------------|
D|5-----5-----5--|5-----5-----5--|0-----0-----0--|0-----0-----0--|
                                                            (1) We

VERSE 1:

e|---------------|---------------|---------------|---------------|
B|--3-----3------|--3-----3------|--3-----3------|--3-----3------|
G|--0-----0------|--0-----0------|--0-----0------|--0-----0------|
D|----4-----4---4|----4-----4---4|----4-----4---4|----4-----4---4|
A|---------------|---------------|---------------|---------------|
D|0-----0-----0--|0-----0-----0--|2-----2-----2--|2-----2-----0--|
  haven't     forgotten a thing                     But let's not

e|---------------|---------------|---------------|---------------|
B|--3-----3------|--3-----3------|--3-----3------|--3-----3------|
G|--0-----0------|--0-----0------|--0-----0------|--0-----0------|
D|----4-----4---4|----4-----4---4|----4-----4---4|----4-----4---4|
A|---------------|---------------|---------------|---------------|
D|5-----5-----5--|5-----5-----5--|0-----0-----0--|0-----0-----0--|
  kid ourselves             these days                          We

e|---------------|---------------|---------------|---------------|
B|--3-----3------|--3-----3------|--3-----3------|--3-----3------|
G|--0-----0------|--0-----0------|--0-----0------|--0-----0------|
D|----4-----4---4|----4-----4---4|----4-----4---4|----4-----4---4|
A|---------------|---------------|---------------|---------------|
D|0-----0-----0--|0-----0-----0--|2-----2-----2--|2-----2-----0--|
  let  years go   by once again                    From moon- and

e|---------------|---------------|---------------|---------------|
B|--3-----3------|--3-----3------|--3-----3------|--3-----3------|
G|--0-----0------|--0-----0------|--0-----0------|--0-----0------|
D|----4-----4---4|----4-----4---4|----4-----4---4|----4-----4---4|
A|---------------|---------------|---------------|---------------|
D|5-----5-----5--|5-----5-----5--|0-----0-----0--|0-----0-----0--|
  monkey-shine and masquerades                                  From

e|---------------|---------------|--0-----0------|--0-----0------|
B|--8-----8------|--8-----8------|--5-----5------|--5-----5------|
G|---------------|---------------|--x------------|--x------------|
D|----9-----9---9|----9-----9---9|----6-----6---6|----6-----6---6|
A|---------------|---------------|---------------|---------------|
D|0-----0-----0--|0-----0-----0--|0-----0-----0--|0-----0-----0--|
  quietly         shedding our youth                          All the

e|---------------|---------------|---------------|---------------|
B|--7-----7------|--7-----7------|--3-----3------|--3-----3------|
G|---------------|---------------|--0-----0------|--0-----0------|
D|----7-----7---7|----7-----7---7|----4-----4---4|----4-----4---4|
A|---------------|---------------|---------------|---------------|
D|0-----0-----0--|0-----0-----0--|0-----0-----0--|0-----0-----0--|
  blame and that hawking about truth

e|---------------|---------------|--0-----0------|--0-----0------|
B|--8-----8------|--8-----8------|--5-----5------|--5-----5------|
G|---------------|---------------|--x------------|--x------------|
D|----9-----9---9|----9-----9---9|----6-----6---6|----6-----6---6|
A|---------------|---------------|---------------|---------------|
D|0-----0-----0--|0-----0-----0--|0-----0-----0--|0-----0-----0--|
  Finding         we're dissatisfied                            Re-

e|---------------|---------------|---------------|---------------|
B|--7-----7------|--7-----7------|--7-----7------|--7-----7------|
G|---------------|---------------|---------------|---------------|
D|----7-----7---7|----7-----7---7|----7-----7---7|----7-----7---7|
A|---------------|---------------|---------------|---------------|
D|0-----0-----0--|0-----0-----0--|5-----5-----5--|5-----5-----5--|
  nouncing the doubts of the night         in the clear dawn

e|---------------|---------------|---------------|---------------|
B|--3-----3------|--3-----3------|--3-----3------|--3-----3------|
G|--0-----0------|--0-----0------|--0-----0------|--0-----0------|
D|----4-----4---4|----4-----4---4|----4-----4---4|----4-----4---4|
A|---------------|---------------|2-----2-----0--|---------------|
D|0-----0-----0--|0-----0-----0--|---------------|4-----4-----2--|
                                                        (2) There's a

VERSE 2:

e|---------------|---------------|---------------|---------------|
B|--3-----3------|--3-----3------|--3-----3------|--3-----3------|
G|--0-----0------|--0-----0------|--0-----0------|--0-----0------|
D|----4-----4---4|----4-----4---4|----4-----4---4|----4-----4---4|
A|---------------|---------------|---------------|---------------|
D|0-----0-----0--|0-----0-----0--|2-----2-----2--|2-----2-----0--|
  far-away        look in your eye                           It's be-

e|---------------|---------------|---------------|---------------|
B|--3-----3------|--3-----3------|--3-----3------|--3-----3------|
G|--0-----0------|--0-----0------|--0-----0------|--0-----0------|
D|----4-----4---4|----4-----4---4|----4-----4---4|----4-----4---4|
A|---------------|---------------|---------------|---------------|
D|5-----5-----5--|5-----5-----5--|0-----0-----0--|0-----0-----0--|
  hind the lines of the second page                      It's like

e|---------------|---------------|---------------|---------------|
B|--3-----3------|--3-----3------|--3-----3------|--3-----3------|
G|--0-----0------|--0-----0------|--0-----0------|--0-----0------|
D|----4-----4---4|----4-----4---4|----4-----4---4|----4-----4---4|
A|---------------|---------------|---------------|---------------|
D|0-----0-----0--|0-----0-----0--|2-----2-----2--|2-----2-----0--|
  reading    some poet sublime                               And your

e|---------------|---------------|---------------|---------------|
B|--3-----3------|--3-----3------|--3-----3------|--3-----3------|
G|--0-----0------|--0-----0------|--0-----0------|--0-----0------|
D|----4-----4---4|----4-----4---4|----4-----4---4|----4-----4---4|
A|---------------|---------------|---------------|---------------|
D|5-----5-----5--|5-----5-----5--|0-----0-----0--|0-----0-----0--|
  life till now was just commonplace

e|---------------|---------------|--0-----0------|--0-----0------|
B|--8-----8------|--8-----8------|--5-----5------|--5-----5------|
G|---------------|---------------|--x------------|--x------------|
D|----9-----9---9|----9-----9---9|----6-----6---6|----6-----6---6|
A|---------------|---------------|---------------|---------------|
D|0-----0-----0--|0-----0-----0--|0-----0-----0--|0-----0-----0--|
  Rewrite,     rehearse,   and repent                    We've gone

e|---------------|---------------|---------------|---------------|
B|--7-----7------|--7-----7------|--3-----3------|--3-----3------|
G|---------------|---------------|--0-----0------|--0-----0------|
D|----7-----7---7|----7-----7---7|----4-----4---4|----4-----4---4|
A|---------------|---------------|---------------|---------------|
D|0-----0-----0--|0-----0-----0--|0-----0-----0--|0-----0-----0--|
  over it         again and again                             We're

e|---------------|---------------|--0-----0------|--0-----0------|
B|--8-----8------|--8-----8------|--5-----5------|--5-----5------|
G|---------------|---------------|--x------------|--x------------|
D|----9-----9---9|----9-----9---9|----6-----6---6|----6-----6---6|
A|---------------|---------------|---------------|---------------|
D|0-----0-----0--|0-----0-----0--|0-----0-----0--|0-----0-----0--|
  aching   to    march      in parades                     We bump

e|---------------|---------------|---------------|---------------|
B|--7-----7------|--7-----7------|--7-----7------|--7-----7------|
G|---------------|---------------|---------------|---------------|
D|----7-----7---7|----7-----7---7|----7-----7---7|----7-----7---7|
A|---------------|---------------|---------------|---------------|
D|0-----0-----0--|0-----0-----0--|5-----5-----5--|5-----5-----5--|
  shoulders behind barricades              in a sea of faces

e|--------0------|--------0------|
B|--2-----------2|--2-----2------|
G|----0-----0----|----0-----0---0|
D|---------------|---------------|
A|0-----0-----0--|0-----0-----0--|
D|---------------|---------------|


       CHORUS:

       e|---------------|--------7------|--------5------|--5-----5------|
       B|--------5------|--8-----8------|--7------------|--7-----7------|
       G|--5------------|----9-----9---9|----7-----7---7|----7-----7---7|
       D|----5-----5----|---------------|---------------|---------------|
       A|---------------|---------------|---------------|---------------|
       D|3-----3-----3/-|7-----7-----0--|5-----5-----5--|5-----5-----0--|
         And so it goes                  all fall down

       e|--3-----3------|---------------|--5-----5------|--5-----5------|
       B|--5-----5------|--5-----5------|--7-----7------|--7-----7------|
       G|----5-----5---5|--5-----5------|----7-----7---7|----7-----7---7|
       D|---------------|----5-----5---5|---------------|---------------|
       A|3-----3------0-|---------------|---------------|---------------|
       D|---------------|3-----3-----0--|5-----5-----5--|5-----5-----0--|
         Could this planet hold a place for you

       e|---------------|--------7------|--------5------|--5-----5------|
       B|--------5------|--8-----8------|--7------------|--7-----7------|
       G|--5------------|----9-----9---9|----7-----7---7|----7-----7---7|
       D|----5-----5----|---------------|---------------|---------------|
       A|---------------|---------------|---------------|---------------|
       D|3-----3-----3/-|7-----7-----0--|5-----5-----5--|5-----5-----0--|
         When the tide creeps in         all around                 Take a

       e|--3-----3------|----------3----|------3--------|
       B|--5-----5------|--5-----------5|---------------|
       G|----5-----5---5|------5--------|--5-------5----|
       D|---------------|---------------|---------------|
       A|3-----3-----0--|---------------|---------------|
       D|---------------|3---3---3---3--|3---3---3---0--|
         knee-deep breath                            or

       e|---------------|---------------|---------------|---------------|
       B|--3-----3------|--3-----3------|--3-----3------|--3-----3------|
       G|--0-----0------|--0-----0------|--0-----0------|--0-----0------|
       D|----4-----4---4|----4-----4---4|----4-----4---4|----4-----4---4|
       A|---------------|---------------|2-----2-----0--|---------------|
       D|0-----0-----0--|0-----0-----0--|---------------|4-----4-----2--|
         two                                                    (3) Did your
                                                                (4)    We

VERSE 3:

e|---------------|---------------|---------------|---------------|
B|--3-----3------|--3-----3------|--3-----3------|--3-----3------|
G|--0-----0------|--0-----0------|--0-----0------|--0-----0------|
D|----4-----4---4|----4-----4---4|----4-----4---4|----4-----4---4|
A|---------------|---------------|---------------|---------------|
D|0-----0-----0--|0-----0-----0--|2-----2-----2--|2-----2-----0--|
  family teach you everything                          About the

e|---------------|---------------|---------------|---------------|
B|--3-----3------|--3-----3------|--3-----3------|--3-----3------|
G|--0-----0------|--0-----0------|--0-----0------|--0-----0------|
D|----4-----4---4|----4-----4---4|----4-----4---4|----4-----4---4|
A|---------------|---------------|---------------|---------------|
D|5-----5-----5--|5-----5-----5--|0-----0-----0--|0-----0-----0--|
  in-betweens       of grace and shame

e|---------------|---------------|---------------|---------------|
B|--3-----3------|--3-----3------|--3-----3------|--3-----3------|
G|--0-----0------|--0-----0------|--0-----0------|--0-----0------|
D|----4-----4---4|----4-----4---4|----4-----4---4|----4-----4---4|
A|---------------|---------------|---------------|---------------|
D|0-----0-----0--|0-----0-----0--|2-----2-----2--|2-----2-----0--|
  Go,  run   and sound the alarm                           Because it's

e|---------------|---------------|---------------|---------------|
B|--3-----3------|--3-----3------|--3-----3------|--3-----3------|
G|--0-----0------|--0-----0------|--0-----0------|--0-----0------|
D|----4-----4---4|----4-----4---4|----4-----4---4|----4-----4---4|
A|---------------|---------------|---------------|---------------|
D|5-----5-----5--|5-----5-----5--|0-----0-----0--|0-----0-----0--|
  wearing off       like novocaine                              A-

e|---------------|---------------|--0-----0------|--0-----0------|
B|--8-----8------|--8-----8------|--5-----5------|--5-----5------|
G|---------------|---------------|--x------------|--x------------|
D|----9-----9---9|----9-----9---9|----6-----6---6|----6-----6---6|
A|---------------|---------------|---------------|---------------|
D|0-----0-----0--|0-----0-----0--|0-----0-----0--|0-----0-----0--|
  wake   enough   to      recognize                          It's a

e|---------------|---------------|---------------|---------------|
B|--7-----7------|--7-----7------|--3-----3------|--3-----3------|
G|---------------|---------------|--0-----0------|--0-----0------|
D|----7-----7---7|----7-----7---7|----4-----4---4|----4-----4---4|
A|---------------|---------------|---------------|---------------|
D|0-----0-----0--|0-----0-----0--|0-----0-----0--|0-----0-----0--|
  bore when your heart's vandalized                            By the

e|---------------|---------------|--0-----0------|--0-----0------|
B|--8-----8------|--8-----8------|--5-----5------|--5-----5------|
G|---------------|---------------|--x------------|--x------------|
D|----9-----9---9|----9-----9---9|----6-----6---6|----6-----6---6|
A|---------------|---------------|---------------|---------------|
D|0-----0-----0--|0-----0-----0--|0-----0-----0--|0-----0-----0--|
  ones who smile and say "that's the breaks"                 And the

e|---------------|---------------|---------------|---------------|
B|--7-----7------|--7-----7------|--7-----7------|--7-----7------|
G|---------------|---------------|---------------|---------------|
D|----7-----7---7|----7-----7---7|----7-----7---7|----7-----7---7|
A|---------------|---------------|---------------|---------------|
D|0-----0-----0--|0-----0-----0--|5-----5-----5--|5-----5-----5--|
 "see-you-later-but-you-know-I-did-love-you" embrace  that you've grown

e|--------0------|--------0------|
B|--2-----------2|--2-----2------|
G|----0-----0----|----0-----0---0|
D|---------------|---------------|
A|0-----0-----0--|0-----0-----0--|
D|---------------|---------------|
  used to


       REPEAT CHORUS


HALF-VERSE 4:

e|---------------|---------------|---------------|---------------|
B|--3-----3------|--3-----3------|--3-----3------|--3-----3------|
G|--0-----0------|--0-----0------|--0-----0------|--0-----0------|
D|----4-----4---4|----4-----4---4|----4-----4---4|----4-----4---4|
A|---------------|---------------|---------------|---------------|
D|0-----0-----0--|0-----0-----0--|2-----2-----2--|2-----2-----0--|
  haven't     forgotten a thing                     But we won't

e|---------------|---------------|---------------|---------------|
B|--3-----3------|--3-----3------|--3-----3------|--3-----3------|
G|--0-----0------|--0-----0------|--0-----0------|--0-----0------|
D|----4-----4---4|----4-----4---4|----4-----4---4|----4-----4---4|
A|---------------|---------------|---------------|---------------|
D|5-----5-----5--|5-----5-----5--|0-----0-----0--|0-----0-----0--|
  kid ourselves             this time                          Because

e|---------------|---------------|---------------|---------------|
B|--3-----3------|--3-----3------|--3-----3------|--3-----3------|
G|--0-----0------|--0-----0------|--0-----0------|--0-----0------|
D|----4-----4---4|----4-----4---4|----4-----4---4|----4-----4---4|
A|---------------|---------------|---------------|---------------|
D|0-----0-----0--|0-----0-----0--|2-----2-----2--|2-----2-----0--|
  love's the show, it won't ever fold                        Around

e|---------------|---------------|---------------|---------------|
B|--3-----3------|--3-----3------|3--------------|---------------|
G|--0-----0------|--0-----0------|0--------------|---------------|
D|----4-----4---4|----4-----4----|4--------------|---------------|
A|---------------|---------------|2-------tap pickguard----------|
D|5-----5-----5--|5-----5-----0--|--------*------|*--------------|
  town it seems   like everyone knows       It'll raise the sky

e|--------12-----|----12----12---|--------7------|----7-----7----|
B|--8-----------8|-----------\5--|--5-----------5|------------0--|
G|----11----11---|11----11------7|----7-----7----|7-----7--------|
D|---------------|---------------|---------------|---------------|
A|---------------|---------------|---------------|---------------|
D|0-----0-----0--|--0-----0------|0-----0-----0--|--0-----0------|

e|--------0------|----0-----0----|--4-----0-----4|----4----------|
B|--5-----------5|------------0--|----3-----0----|3--------------|
G|----6-----6----|6-----6--------|---------------|------2--------|
D|---------------|---------------|---------------|---------------|
A|---------------|---------------|---------------|---------------|
D|5-----5-----5--|--5-----5------|0-----0-----0--|--0-----0------|
                                                        It'll blow the sky

e|--------12-----|----12----12---|--------7------|----7-----7----|
B|--8-----------8|-----------\5--|--5-----------5|------------0--|
G|----11----11---|11----11------7|----7-----7----|7-----7--------|
D|---------------|---------------|---------------|---------------|
A|---------------|---------------|---------------|---------------|
D|0-----0-----0--|--0-----0------|0-----0-----0--|--0-----0------|

e|--------0------|----0-----0----|4---4-4-4-4-4-4|---------------|
B|--5-----------5|------------0--|3---3-3-3-3-3-3|---------------|
G|----6-----6----|6-----6--------|2---2-2-2-2-2-2|---------------|
D|---------------|---------------|0---0-0-0-0-0-0|---------------|
A|---------------|---------------|0---0-0-0-0-0-0|---------------|
D|5-----5-----5--|--5-----5------|0---0-0-0-0-0-0|---------------|


Transcribed 12/11/2004 by T-rev
More tab available at www.t-rev.net



~~~~~~~~~~~~~~~~~~~~~~~~~~~~~~~~~~~~~~~~~~~~~~~~~~~~~~~~~~~~~~~~~~~~



"All Fall Down (live)" condensed tab
By Harrod & Funck
From the 1998 album "Harrod & Funck Live"
(Studio version on 1997 self-titled album)
Words and music by Harrod & Funck  1998 Flannel Circus Music (ASCAP)
www.jasonharrod.com
Transcribed by T-rev www.t-rev.net

In D major, straight 4/4 time.  Guitar tuned to double drop-D, i.e. DADGBd (from
standard tuning, tune the biggest and smallest strings down the equivalent of two
frets).  I think this tab is fairly representavive of the rhythm part (played by
Funck).  Harrod's harmonica in the outro is a D major diatonic.


VERSE A:
e|---------------|---------------|---------------|---------------|
B|--3-----3------|--3-----3------|--3-----3------|--3-----3------|
G|.-0-----0------|--0-----0------|--0-----0------|--0-----0------|
D|.---4-----4---4|----4-----4---4|----4-----4---4|----4-----4---4|
A|---------------|---------------|---------------|---------------|
D|0-----0-----0--|0-----0-----0--|2-----2-----2--|2-----2-----0--|

e|---------------|---------------|---------------|---------------|
B|--3-----3------|--3-----3------|--3-----3------|--3-----3------|
G|--0-----0------|--0-----0------|--0-----0------|--0-----0-----:|(repeat)
D|----4-----4---4|----4-----4---4|----4-----4---4|----4-----4---4|
A|---------------|---------------|---------------|---------------|
D|5-----5-----5--|5-----5-----5--|0-----0-----0--|0-----0-----0--|


VERSE B:
e|---------------|---------------|--0-----0------|--0-----0------|
B|--8-----8------|--8-----8------|--5-----5------|--5-----5------|
G|---------------|---------------|--x------------|--x------------|
D|----9-----9---9|----9-----9---9|----6-----6---6|----6-----6---6|
A|---------------|---------------|---------------|---------------|
D|0-----0-----0--|0-----0-----0--|0-----0-----0--|0-----0-----0--|

e|---------------|---------------|---------------|---------------|
B|--7-----7------|--7-----7------|--3-----3------|--3-----3------|
G|---------------|---------------|--0-----0------|--0-----0------|
D|----7-----7---7|----7-----7---7|----4-----4---4|----4-----4---4|
A|---------------|---------------|---------------|---------------|
D|0-----0-----0--|0-----0-----0--|0-----0-----0--|0-----0-----0--|

e|---------------|---------------|--0-----0------|--0-----0------|
B|--8-----8------|--8-----8------|--5-----5------|--5-----5------|
G|---------------|---------------|--x------------|--x------------|
D|----9-----9---9|----9-----9---9|----6-----6---6|----6-----6---6|
A|---------------|---------------|---------------|---------------|
D|0-----0-----0--|0-----0-----0--|0-----0-----0--|0-----0-----0--|

e|---------------|---------------|---------------|---------------|
B|--7-----7------|--7-----7------|--7-----7------|--7-----7------|
G|---------------|---------------|---------------|---------------|
D|----7-----7---7|----7-----7---7|----7-----7---7|----7-----7---7|
A|---------------|---------------|---------------|---------------|
D|0-----0-----0--|0-----0-----0--|5-----5-----5--|5-----5-----5--|

________________2,3_______________ (skip first time)
e|--------0------|--------0------|
B|--2-----------2|--2-----2------|
G|----0-----0----|----0-----0---0|
D|---------------|---------------|
A|0-----0-----0--|0-----0-----0--|
D|---------------|---------------|


LEAD-IN:
e|---------------|---------------|---------------|---------------|
B|--3-----3------|--3-----3------|--3-----3------|--3-----3------|
G|--0-----0------|--0-----0------|--0-----0------|--0-----0------|
D|----4-----4---4|----4-----4---4|----4-----4---4|----4-----4---4|
A|---------------|---------------|2-----2-----0--|---------------|
D|0-----0-----0--|0-----0-----0--|---------------|4-----4-----2--|


CHORUS:
e|---------------|--------7------|--------5------|--5-----5------|
B|--------5------|--8-----8------|--7------------|--7-----7------|
G|--5------------|----9-----9---9|----7-----7---7|----7-----7---7|
D|----5-----5----|---------------|---------------|---------------|
A|---------------|---------------|---------------|---------------|
D|3-----3-----3/-|7-----7-----0--|5-----5-----5--|5-----5-----0--|

e|--3-----3------|---------------|--5-----5------|--5-----5------|
B|--5-----5------|--5-----5------|--7-----7------|--7-----7------|
G|----5-----5---5|--5-----5------|----7-----7---7|----7-----7---7|
D|---------------|----5-----5---5|---------------|---------------|
A|3-----3------0-|---------------|---------------|---------------|
D|---------------|3-----3-----0--|5-----5-----5--|5-----5-----0--|

e|---------------|--------7------|--------5------|--5-----5------|
B|--------5------|--8-----8------|--7------------|--7-----7------|
G|--5------------|----9-----9---9|----7-----7---7|----7-----7---7|
D|----5-----5----|---------------|---------------|---------------|
A|---------------|---------------|---------------|---------------|
D|3-----3-----3/-|7-----7-----0--|5-----5-----5--|5-----5-----0--|

e|--3-----3------|----------3----|------3--------|
B|--5-----5------|--5-----------5|---------------|
G|----5-----5---5|------5--------|--5-------5----|
D|---------------|---------------|---------------|
A|3-----3-----0--|---------------|---------------|
D|---------------|3---3---3---3--|3---3---3---0--|


VERSE 4 ENDING:
e|---------------|---------------|---------------|---------------|
B|--3-----3------|--3-----3------|3--------------|---------------|
G|--0-----0------|--0-----0------|0--------------|---------------|
D|----4-----4---4|----4-----4----|4--------------|---------------|
A|---------------|---------------|2--------------|---------------|
D|5-----5-----5--|5-----5-----0--|--------*------|*--------------|
                                          tap pickguard

OUTRO:
e|--------12-----|----12----12---|--------7------|----7-----7----|
B|--8-----------8|-----------\5--|--5-----------5|------------0--|
G|----11----11---|11----11------7|----7-----7----|7-----7--------|
D|---------------|---------------|---------------|---------------|
A|---------------|---------------|---------------|---------------|
D|0-----0-----0--|--0-----0------|0-----0-----0--|--0-----0------|

e|--------0------|----0-----0----|--4-----0-----4|----4----------|
B|--5-----------5|------------0--|----3-----0----|3--------------|
G|----6-----6----|6-----6--------|---------------|------2--------|
D|---------------|---------------|---------------|---------------|
A|---------------|---------------|---------------|---------------|
D|5-----5-----5--|--5-----5------|0-----0-----0--|--0-----0------|

e|--------12-----|----12----12---|--------7------|----7-----7----|
B|--8-----------8|-----------\5--|--5-----------5|------------0--|
G|----11----11---|11----11------7|----7-----7----|7-----7--------|
D|---------------|---------------|---------------|---------------|
A|---------------|---------------|---------------|---------------|
D|0-----0-----0--|--0-----0------|0-----0-----0--|--0-----0------|

e|--------0------|----0-----0----|4---4-4-4-4-4-4|---------------|
B|--5-----------5|------------0--|3---3-3-3-3-3-3|---------------|
G|----6-----6----|6-----6--------|2---2-2-2-2-2-2|---------------|
D|---------------|---------------|0---0-0-0-0-0-0|---------------|
A|---------------|---------------|0---0-0-0-0-0-0|---------------|
D|5-----5-----5--|--5-----5------|0---0-0-0-0-0-0|---------------|


Transcribed 12/11/2004 by T-rev
More tab available at www.t-rev.net


VERSE A INTRO

VERSE 1A:
We haven't forgotten a thing
But let's not kid ourselves these days
We let years go by once again
From moon- and monkey-shine and masquerades

VERSE 1B:
From quietly shedding our youth
All the blame and that hawking about truth
Finding we're dissatisfied
Renouncing the doubts of the night
In the clear dawn

LEAD-IN

VERSE 2A:
There's a far-away look in your eye
It's behind the lines of the second page
It's like reading some poet sublime
And your life till now was just commonplace

VERSE 2B:
Rewrite, rehearse, and repent
We've gone over it again and again
We're aching to march in parades
We bump shoulders behind barricades
In a sea of faces

CHORUS:
And so it goes, all fall down
Could this planet hold a place for you
When the tide creeps in all around
Take a knee-deep breath or two

LEAD-IN

VERSE 3A:
Did your family teach you everything
About the in-betweens of grace and shame
Go, run and sound the alarm
Because it's wearing off like novocaine

VERSE 3B:
Awake enough to recognize
It's a bore when your heart's vandalized
By the ones who smile and say "that's the breaks"
And the see-you-later-but-you-know-I-did-love-you embrace
That you've grown used to

REPEAT CHORUS

LEAD-IN

VERSE 4A (last line different):
We haven't forgotten a thing
But we won't kid ourselves this time
Because love's the show, it won't ever fold
Around town it seems like everyone knows it'll raise the sky

OUTRO (w/ harmonica):
It'll blow the sky


T-rev's Tab     Caedmon's  ~  Featured  ~  Other  ~  Topics  ~  Hints  ~  Reviews  ~  Links  ~  Index

Please email comments or contributions to Email T-rev.